0
0

Cтаре кіно Віктор Морозов

Текст пісні та акорди для гітари

  • Гітарні акорди Hubert
Вступ (Мелодія 1):  e13 * D6 C7M/6 H11/-9/7  (3)

Мелодія 1:
(читається текст під Мелодію 1)
e13 *            D6
   Це старе кіно   про двох самотніх людей
C7M/6                                H11/-9/7
   Які ціле життя шукали одне одного   і не знаходили
e13 *                             D6
   А коли вони нарешті зустрілися
                            C7M/6                    H11/-9/7
   То злякалися свого щастя   і все закінчилося дощем

Мелодія 2:
    C7M       C13/-5   Hsus4   e9 
   Гаснуть повільно порожні екрани
    C7M      C13/-5   H-9/7
   Ми не відводим   очей
    C7M     C13/-5   Hsus4    e9 
   Довго палають барвисті реклами
    C7M**    C7M/E
   Цих страшних ночей
    H-9
   Цих важких ночей

Мелодія 1:
   Це старе кіно про страх перед щастям
   Про те що жодному з нас не можна залишатися самотніми
   Інакше найкраща навіть доля закінчується поразкою
   Поразкою і нескінченним дощем

Мелодія 2:
   День закінчився дощем і грозою
   Пахне весною і сном
   Ми не захочем дивитися знову
   Це старе кіно
   Це страшне кіно

   Злива густа і не видно дороги
   Я твої пальці ловлю
   Будьмо удвох і не бійся нічого
   Я тебе люблю
   Я тебе люблю

Мелодія 1:
   Ці старі режисери які давно вже вижили з розуму
   Накручують свої фільми про самотніх нещасних людей
   І добре заробляють на цьому
   Нехай же хоч одного разу вони залишаться ні з чим
   Хоч одного разу... вони

   В твоїх очах я знову бачу себе
   Яка ти світла

Програш (на тему Мелодії 2).  (2)


*****
Табулатура для гітари.
Підібрав: bohdanko.
Перевірив і виправив: Віктор Морозов (http://www.vіctormorozov.com).

Гітара 1.

Мелодія 1:
E||---3-----3-----3-----3-----|--2-----2-----2-----2-----|
H||---1-----1-----1-----1-----|--0-----0-----0-----0-----|
G||------4-----4-----4-----4--|-----2-----2-----2-----2--|
D||---2-----------------------|--0-----------------------|
A||---------------------------|--------------------------|
E||---------------------------|--------------------------|

--0-----0-----0-----0-----|--0-----0-----0-----0------||
--0-----0-----0-----0-----|--0-----0-----0-----0------||
-----2-----2-----2-----2--|--5-----5-----5-----5------||
--------------------------|-----7-----7-----7-----7---||
--3-----------------------|---------------------------||
--------------------------|--7------------------------||

Мелодія 2:
--7-----7-----7---5-----5-----5---|--5-----5-----5---3-----3-----3---|
------5-----5---------5-----5-----|------5-----5---------------------|
----------------------------------|----------------------0-----0-----|
----5-----5-----5---4-----4-----4-|----4-----4-----4---4-----4-----4-|
--3---------------3---------------|--2-------------------------------|
----------------------------------|------------------0---------------|

--7-----7-----7---5-----5-----5---|--5-------------------------------|
------5-----5---------5-----5-----|--------0-----0---4-----0-----0---|
----------------------------------|------5-----5---------5-----5-----|
----5-----5-----5---4-----4-----4-|----7-----7-----7---7-----7-----7-|
--3---------------3---------------|----------------------------------|
----------------------------------|--7---------------7---------------|

--7-----7-----7---5-----5-----5---|--5-----5-----5---3-----3-----3---|
------5-----5---------5-----5-----|------5-----5---------------------|
----------------------------------|----------------------0-----0-----|
----5-----5-----5---4-----4-----4-|----4-----4-----4---4-----4-----4-|
--3---------------3---------------|--2-------------------------------|
----------------------------------|------------------0---------------|

--3-----3-----3----------|-------------------------||
------1-----1------------|--7-----7-----7----------||
----4-----4--------------|------5-----5------------||
--------2----------------|----9-----9--------------||
--3----------------------|-------------------------||
-------------------------|--7----------------------||
Оцінити цей розбір
Внески:
Hubert
Hubert
anonim